?

Log in

No account? Create an account

Sun, Jun. 18th, 2006, 09:45 am
childofstrings: Ooo...Tabs....shiney

Hey now this is pretty cool. An Ani community purely for the joys of tabs. Who would have thunk it? Anywho....Im Anna and Im a big Ani fan. As a matter of fact Im going to see her live tonight in DC. But anyway...I felt I should make a contribution to keep this place up and running. I've got 85% of Educated Guess tabbed out. The hard part was figuring out the tuning, once you got that you can hit the ground running on this song. You could probably figure out the rest yourself, if you do, post it up here!!!

Anyway...here's
TUNING: E,B,G,D,G#,C# (high to low)

INTRO:
E -----------------------------------------------------------------------------------
B ----------2---------------------------------------2------------------------------
G ---1/3-3---3-----------56--6-----66----1/3-3---3-----------56--66666---
D ---1/3-------3/4-------46----6---00----1/3---------3/4---46--66666---
G#--0------------------0-000------6------0------------------0-000-------------
C#--0---------------------------------------0---------------------------------------

E ------------------------------------------------------------------------------------
B ------------2-----------------------------2---2---2/ (Something here I couldn’t figure out)
G ----1/3-3----3---------56--6-------------0---0---------------------------------
D ----1/3---------3/4----46----6-------------------------------------------------
G#--0------------------0-000-----6-----------------------------------------------
C#--0-------------------------------0-0/20------------------------------------------

VERSE:
E -----------------------------------------------------------------------------------
B ----------2---------------------------------------2------------------------------
G ---1/3-3---3-----------56--6-----66----1/3-3---3-----------56--66666---
D ---1/3---------3/4------46----6---00----1/3---------3/4------46--66666---
G#--0------------------0-000------6------0------------------0-000-------------
C#--0---------------------------------------0---------------------------------------

Looks like my crazy family…..Is down one crazy daughter cause….

HAPPY TABBING!!!